Make your own free website on Tripod.com
害怕 難得一見 中間地帶 開始懂了 零缺點 壞天氣

 

害怕
Key: B G Cm G
忘 我沒有很努力要自己去遺忘

Cm G Cm G Cm
那些和日記一起收藏的過往 孤單在思緒之中變得很漫長

G Cm G
想 我沒有很刻意讓自己不去想

Cm Em D C
那些和照片一起靜止的模樣 我學著堅強

Am D
堅強到不用學著不想 學著遺忘

G Em C D
還是害怕夜深人時總想起你 還是害怕不經意的聽見你的消息

Bm Em C G Cm D
然而當愛已經沉澱得太清晰 當擁有已經是失去 就勇敢的放棄

G Em C D
還是會害怕一個人時就很難忘記 還是害怕突然寧願當初沒有決定

C Am
然而當愛最後的出口是分離 我會這樣相信 走下去

 

 

難得一見intro
只是前奏
E||--5----6----5----5--|--5-----5----6----5---|--5----5-------|

B||----------------------|--------------------------|----------------|

G||----------------------|--------------------------|----------------|

D||----------------------|--------------------------|----------------|

A||----------------------|--------------------------|----------------|

E||----------------------|--------------------------|----------------|

 

--10b---8-------8---|----------------------|------------------||-------||

-------------10--------|---10----8----6----|--5---6---5----||--3----||

------------------------|----------------------|-----------------*||-------||

------------------------|----------------------|-----------------*||-------||

------------------------|----------------------|------------------||-------||

------------------------|----------------------|------------------||-------||

 

 

難得一見solo
只是間奏
E||----------------------|----------------------|---------------------|

B||----------------------|-----------------9----|--7------------------|

G||--6----8---8---6---|--8----6----8-------|-----------6----8----|

D||----------------------|----------------------|---------------------|

A||----------------------|----------------------|---------------------|

E||----------------------|----------------------|---------------------|

 

-----------------|-----------------------|---------------------|

-----------------|------------10---9---|--7-----------------|

--8----6---8---|--6----8--------------|---------6----8----|

-----------------|-----------------------|---------------------|

-----------------|-----------------------|---------------------|

-----------------|-----------------------|---------------------|

 

----------------------|---------------------|--11----||

-----------------9---|--7-----11b-------|--------||

--8----6----8-------|---------------------|--------||

----------------------|---------------------|--------||

----------------------|---------------------|--------||

----------------------|---------------------|--------||

 

 


中間地帶intro
只是前奏
E||----------------------|----------------------|----------------------|

B||----------------------|-------6-------------|-----------------7----|

G||--5----4----5---4--|--5---------5----4--|--5----4----5-------|

D||----------------------|----------------------|----------------------|

A||----------------------|----------------------|----------------------|

E||----------------------|----------------------|----------------------|

 

----------------------|----------------------|-----------------------||

--7----6---7---6---|--7----9----7---6--|--7----6---7---9----||

----------------------|----------------------|----------------------*||

----------------------|----------------------|----------------------*||

----------------------|----------------------|-----------------------||

----------------------|----------------------|-----------------------||

 

 


開始懂了
Key: B

G D/#F Bm
我竟然沒有調頭 最殘忍那一刻

C Am D
靜靜看你走 一點都不像我

G D/#F Bm
原來人會變得溫柔 是透澈的懂了

C Bm Am D
愛情是流動的 不由人的 何必激動著要理由

G D/#F Em Bm
相信你只是怕傷害我 不是騙我 很愛過誰會捨得

C G Am D
把我的夢搖醒了 宣佈幸福不會來了

G D/#F Em Bm
用心酸微笑去原諒了 也翻越了 有昨天還是好的

C G Am D G
但明天是自己的 開始懂了 快樂是選擇

 

 

零缺點intro
只是前奏

E||---------------------------------|---------------------|------------------||

B||---------------------------------|---------------------|------------------||

G||*--------------------------9----|---------------------|-------7---9---*||

D||*--7--------7--------7---------|--9--------5-------|--9-------------*||

A||--------7--------7-------------|-------7-------------|------------------||

E||---------------------------------|---------------------|------------------||

 

--------------------------------|--------------------------|

--------------------------------|--------------------------|

--------------------------9----|---------------------4----|

--7--------7--------7---------|--9--------5-------------|

-------7--------7--------------|-------7-----------------|

--------------------------------|--------------------------|

 

--------------------|

-------5------------|

--7-----------------|

--------------------|

--------------------|

--------------------|

 

 

零缺點solo
只是間奏

E||--9----7--------------7-------|-------5-----------------------|

B||------------8-------------------|--8---------------------------|

G||-----------------9--------9----|------------9-------5---7----|

D||--------------------------------|-------------------------------|

A||--------------------------------|-------------------------------|

E||--------------------------------|-------------------------------|

 

--------------------------------|-----------------|

--6--------------6-------------|-----------------|

-------5----7-------7----5---|--3----2---0---|

--------------------------------|-----------------|

--------------------------------|-----------------|

--------------------------------|-----------------|

 

 

壞天氣intro
只是前奏

E||--2----0---2---0---|--2----3/--5---3---|-----2----0----2---|

B||----------------------|----------------------|---------------------|

G||----------------------|----------------------|---------------------|

D||----------------------|----------------------|---------------------|

A||----------------------|----------------------|---------------------|

E||----------------------|----------------------|---------------------|

 

--0---2---10---8----|

-----------------------|

-----------------------|

-----------------------|

-----------------------|

-----------------------|